ISO-10303-21;
HEADER;
FILE_DESCRIPTION (( 'STEP AP203' ),
    '1' );
FILE_NAME ('Q-QZWP-R4-12.7-795-M.STEP',
    '2020-12-23T01:24:24',
    ( '' ),
    ( '' ),
    'SwSTEP 2.0',
    'SolidWorks 2020',
    '' );
FILE_SCHEMA (( 'CONFIG_CONTROL_DESIGN' ));
ENDSEC;

DATA;
#1 = DATE_TIME_ROLE ( 'classification_date' ) ;
#2 = APPROVAL_STATUS ( 'not_yet_approved' ) ;
#3 = AXIS2_PLACEMENT_3D ( 'NONE', #82, #186, #291 ) ;
#4 = CARTESIAN_POINT ( 'NONE',  ( -1.500000000000000444, 7.776507174585692163E-16, -6.349999999999999645 ) ) ;
#5 = UNCERTAINTY_MEASURE_WITH_UNIT (LENGTH_MEASURE( 1.000000000000000082E-05 ), #167, 'distance_accuracy_value', 'NONE');
#6 = CARTESIAN_POINT ( 'NONE',  ( -3.000000000000000000, 0.000000000000000000, 12.69999999999999929 ) ) ;
#7 = CIRCLE ( 'NONE', #69, 6.349999999999999645 ) ;
#8 = CIRCLE ( 'NONE', #140, 6.349999999999999645 ) ;
#9 = PLANE ( 'NONE',  #185 ) ;
#10 = ORIENTED_EDGE ( 'NONE', *, *, #142, .T. ) ;
#11 = LOCAL_TIME ( 9, 24, 24.00000000000000000, #248 ) ;
#12 = FACE_OUTER_BOUND ( 'NONE', #68, .T. ) ;
#13 = VERTEX_POINT ( 'NONE', #279 ) ;
#14 = CARTESIAN_POINT ( 'NONE',  ( 1.500000000000000888, 0.000000000000000000, 0.000000000000000000 ) ) ;
#15 = APPLICATION_PROTOCOL_DEFINITION ( 'international standard', 'config_control_design', 1994, #152 ) ;
#16 = ORIENTED_EDGE ( 'NONE', *, *, #166, .T. ) ;
#17 = ORIENTED_EDGE ( 'NONE', *, *, #136, .T. ) ;
#18 = DATE_AND_TIME ( #153, #294 ) ;
#19 = DIRECTION ( 'NONE',  ( 0.000000000000000000, 0.000000000000000000, 1.000000000000000000 ) ) ;
#20 = PERSON_AND_ORGANIZATION ( #261, #283 ) ;
#21 = CARTESIAN_POINT ( 'NONE',  ( -1.614212418857619014, 7.776507174585692163E-16, -6.349999999999999645 ) ) ;
#22 = CARTESIAN_POINT ( 'NONE',  ( -1.614212418857619014, 0.000000000000000000, 0.000000000000000000 ) ) ;
#23 = DIRECTION ( 'NONE',  ( -1.000000000000000000, -0.000000000000000000, -0.000000000000000000 ) ) ;
#24 = DIRECTION ( 'NONE',  ( -1.000000000000000000, -0.000000000000000000, -0.000000000000000000 ) ) ;
#25 = CARTESIAN_POINT ( 'NONE',  ( -3.000000000000000000, 6.349999999999999645, 0.000000000000000000 ) ) ;
#26 = SECURITY_CLASSIFICATION_LEVEL ( 'unclassified' ) ;
#27 = CC_DESIGN_DATE_AND_TIME_ASSIGNMENT ( #194, #220, ( #84 ) ) ;
#28 = DIRECTION ( 'NONE',  ( -1.000000000000000000, -0.000000000000000000, -0.000000000000000000 ) ) ;
#29 = PERSON_AND_ORGANIZATION_ROLE ( 'classification_officer' ) ;
#30 = CARTESIAN_POINT ( 'NONE',  ( -1.614212418857619014, 7.776507174585692163E-16, -6.349999999999999645 ) ) ;
#31 = FACE_BOUND ( 'NONE', #110, .T. ) ;
#32 = APPROVAL ( #120, 'UNSPECIFIED' ) ;
#33 = DIRECTION ( 'NONE',  ( -1.000000000000000000, -0.000000000000000000, -0.000000000000000000 ) ) ;
#34 = APPLICATION_CONTEXT ( 'configuration controlled 3d designs of mechanical parts and assemblies' ) ;
#35 = EDGE_CURVE ( 'NONE', #132, #300, #95, .T. ) ;
#36 = EDGE_CURVE ( 'NONE', #61, #176, #45, .T. ) ;
#37 = EDGE_LOOP ( 'NONE', ( #318, #196 ) ) ;
#38 = ORIENTED_EDGE ( 'NONE', *, *, #166, .F. ) ;
#39 = AXIS2_PLACEMENT_3D ( 'NONE', #22, #114, #246 ) ;
#40 = VECTOR ( 'NONE', #121, 1000.000000000000000 ) ;
#41 = CARTESIAN_POINT ( 'NONE',  ( 0.000000000000000000, 0.000000000000000000, 0.000000000000000000 ) ) ;
#42 = EDGE_CURVE ( 'NONE', #13, #60, #7, .T. ) ;
#43 = SHAPE_DEFINITION_REPRESENTATION ( #182, #211 ) ;
#44 = ORIENTED_EDGE ( 'NONE', *, *, #271, .F. ) ;
#45 = CIRCLE ( 'NONE', #289, 12.69999999999999929 ) ;
#46 = FACE_OUTER_BOUND ( 'NONE', #116, .T. ) ;
#47 = DIRECTION ( 'NONE',  ( 0.000000000000000000, 0.000000000000000000, 1.000000000000000000 ) ) ;
#48 = CC_DESIGN_APPROVAL ( #32, ( #151 ) ) ;
#49 = DIRECTION ( 'NONE',  ( -1.000000000000000000, -0.000000000000000000, -0.000000000000000000 ) ) ;
#50 = ORIENTED_EDGE ( 'NONE', *, *, #119, .F. ) ;
#51 = DIRECTION ( 'NONE',  ( 0.000000000000000000, 0.000000000000000000, 1.000000000000000000 ) ) ;
#52 = PERSON_AND_ORGANIZATION ( #261, #283 ) ;
#53 = FACE_OUTER_BOUND ( 'NONE', #239, .T. ) ;
#54 = CARTESIAN_POINT ( 'NONE',  ( -1.614212418857619014, 0.000000000000000000, 0.000000000000000000 ) ) ;
#55 = DIRECTION ( 'NONE',  ( 0.000000000000000000, 0.000000000000000000, 1.000000000000000000 ) ) ;
#56 = FACE_OUTER_BOUND ( 'NONE', #174, .T. ) ;
#57 = CIRCLE ( 'NONE', #139, 12.69999999999999929 ) ;
#58 = FACE_OUTER_BOUND ( 'NONE', #244, .T. ) ;
#59 =( NAMED_UNIT ( * ) PLANE_ANGLE_UNIT ( ) SI_UNIT ( $, .RADIAN. ) );
#60 = VERTEX_POINT ( 'NONE', #173 ) ;
#61 = VERTEX_POINT ( 'NONE', #143 ) ;
#62 = CIRCLE ( 'NONE', #3, 6.349999999999999645 ) ;
#63 = VERTEX_POINT ( 'NONE', #228 ) ;
#64 = APPROVAL_DATE_TIME ( #207, #292 ) ;
#65 = ADVANCED_FACE ( 'NONE', ( #46 ), #92, .T. ) ;
#66 = ORIENTED_EDGE ( 'NONE', *, *, #119, .T. ) ;
#67 = PERSON_AND_ORGANIZATION ( #261, #283 ) ;
#68 = EDGE_LOOP ( 'NONE', ( #217, #97, #17, #284 ) ) ;
#69 = AXIS2_PLACEMENT_3D ( 'NONE', #253, #334, #47 ) ;
#70 = APPROVAL_STATUS ( 'not_yet_approved' ) ;
#71 = ORIENTED_EDGE ( 'NONE', *, *, #142, .F. ) ;
#72 = DIRECTION ( 'NONE',  ( 1.000000000000000000, 0.000000000000000000, 0.000000000000000000 ) ) ;
#73 = DIRECTION ( 'NONE',  ( 0.000000000000000000, 0.000000000000000000, 1.000000000000000000 ) ) ;
#74 = AXIS2_PLACEMENT_3D ( 'NONE', #197, #72, #112 ) ;
#75 = DIRECTION ( 'NONE',  ( -1.000000000000000000, -0.000000000000000000, -0.000000000000000000 ) ) ;
#76 = APPROVAL_ROLE ( '' ) ;
#77 = CARTESIAN_POINT ( 'NONE',  ( -1.614212418857619014, 0.000000000000000000, 0.000000000000000000 ) ) ;
#78 = COORDINATED_UNIVERSAL_TIME_OFFSET ( 8, 0, .AHEAD. ) ;
#79 = DIRECTION ( 'NONE',  ( 1.000000000000000000, 0.000000000000000000, 0.000000000000000000 ) ) ;
#80 = AXIS2_PLACEMENT_3D ( 'NONE', #203, #23, #221 ) ;
#81 = CARTESIAN_POINT ( 'NONE',  ( -3.000000000000000000, 0.000000000000000000, 0.000000000000000000 ) ) ;
#82 = CARTESIAN_POINT ( 'NONE',  ( 1.500000000000000888, 0.000000000000000000, 0.000000000000000000 ) ) ;
#83 = DIRECTION ( 'NONE',  ( 0.000000000000000000, 0.000000000000000000, -1.000000000000000000 ) ) ;
#84 = PRODUCT_DEFINITION ( 'UNKNOWN', '', #177, #269 ) ;
#85 = ORIENTED_EDGE ( 'NONE', *, *, #254, .T. ) ;
#86 = CARTESIAN_POINT ( 'NONE',  ( -1.614212418857619014, 0.000000000000000000, 12.69999999999999929 ) ) ;
#87 = EDGE_CURVE ( 'NONE', #300, #132, #57, .T. ) ;
#88 = ORIENTED_EDGE ( 'NONE', *, *, #195, .T. ) ;
#89 = EDGE_CURVE ( 'NONE', #63, #189, #133, .T. ) ;
#90 = CARTESIAN_POINT ( 'NONE',  ( 3.000000000000000000, 1.555301434917138433E-15, -12.69999999999999929 ) ) ;
#91 = ORIENTED_EDGE ( 'NONE', *, *, #89, .T. ) ;
#92 = CYLINDRICAL_SURFACE ( 'NONE', #39, 12.69999999999999929 ) ;
#93 = APPROVAL_DATE_TIME ( #18, #106 ) ;
#94 = CARTESIAN_POINT ( 'NONE',  ( 3.000000000000000000, 0.000000000000000000, 12.69999999999999929 ) ) ;
#95 = CIRCLE ( 'NONE', #183, 12.69999999999999929 ) ;
#96 = VECTOR ( 'NONE', #135, 1000.000000000000000 ) ;
#97 = ORIENTED_EDGE ( 'NONE', *, *, #101, .F. ) ;
#98 = CARTESIAN_POINT ( 'NONE',  ( -2.999999999999999556, 7.776507174585692163E-16, -6.349999999999999645 ) ) ;
#99 = AXIS2_PLACEMENT_3D ( 'NONE', #25, #79, #290 ) ;
#100 = APPLICATION_PROTOCOL_DEFINITION ( 'international standard', 'config_control_design', 1994, #34 ) ;
#101 = EDGE_CURVE ( 'NONE', #60, #13, #225, .T. ) ;
#102 = CYLINDRICAL_SURFACE ( 'NONE', #159, 6.349999999999999645 ) ;
#103 = DIRECTION ( 'NONE',  ( -1.000000000000000000, 0.000000000000000000, -0.000000000000000000 ) ) ;
#104 = DIRECTION ( 'NONE',  ( 0.000000000000000000, 0.000000000000000000, -1.000000000000000000 ) ) ;
#105 = CARTESIAN_POINT ( 'NONE',  ( 1.500000000000000444, 6.349999999999999645, 0.000000000000000000 ) ) ;
#106 = APPROVAL ( #2, 'UNSPECIFIED' ) ;
#107 = ORIENTED_EDGE ( 'NONE', *, *, #233, .T. ) ;
#108 = EDGE_LOOP ( 'NONE', ( #245, #137, #277, #270 ) ) ;
#109 = MECHANICAL_CONTEXT ( 'NONE', #152, 'mechanical' ) ;
#110 = EDGE_LOOP ( 'NONE', ( #280, #193 ) ) ;
#111 = ORIENTED_EDGE ( 'NONE', *, *, #35, .F. ) ;
#112 = DIRECTION ( 'NONE',  ( 0.000000000000000000, 0.000000000000000000, -1.000000000000000000 ) ) ;
#113 = APPROVAL_ROLE ( '' ) ;
#114 = DIRECTION ( 'NONE',  ( -1.000000000000000000, -0.000000000000000000, -0.000000000000000000 ) ) ;
#115 = LINE ( 'NONE', #226, #312 ) ;
#116 = EDGE_LOOP ( 'NONE', ( #50, #335, #332, #320 ) ) ;
#117 = AXIS2_PLACEMENT_3D ( 'NONE', #41, #218, #158 ) ;
#118 = DIRECTION ( 'NONE',  ( 0.000000000000000000, 0.000000000000000000, 1.000000000000000000 ) ) ;
#119 = EDGE_CURVE ( 'NONE', #300, #61, #251, .T. ) ;
#120 = APPROVAL_STATUS ( 'not_yet_approved' ) ;
#121 = DIRECTION ( 'NONE',  ( -1.000000000000000000, -0.000000000000000000, -0.000000000000000000 ) ) ;
#122 = EDGE_CURVE ( 'NONE', #223, #160, #127, .T. ) ;
#123 = DIRECTION ( 'NONE',  ( -1.000000000000000000, -0.000000000000000000, -0.000000000000000000 ) ) ;
#124 = FACE_OUTER_BOUND ( 'NONE', #108, .T. ) ;
#125 = CC_DESIGN_APPROVAL ( #292, ( #177 ) ) ;
#126 = PLANE ( 'NONE',  #296 ) ;
#127 = CIRCLE ( 'NONE', #272, 6.349999999999999645 ) ;
#128 = CARTESIAN_POINT ( 'NONE',  ( -1.500000000000000444, 0.000000000000000000, 0.000000000000000000 ) ) ;
#129 = APPROVAL_PERSON_ORGANIZATION ( #231, #106, #299 ) ;
#130 = DIRECTION ( 'NONE',  ( 0.000000000000000000, 0.000000000000000000, 1.000000000000000000 ) ) ;
#131 = DIRECTION ( 'NONE',  ( -1.000000000000000000, -0.000000000000000000, -0.000000000000000000 ) ) ;
#132 = VERTEX_POINT ( 'NONE', #94 ) ;
#133 = CIRCLE ( 'NONE', #74, 6.349999999999999645 ) ;
#134 = EDGE_CURVE ( 'NONE', #13, #242, #298, .T. ) ;
#135 = DIRECTION ( 'NONE',  ( -1.000000000000000000, -0.000000000000000000, -0.000000000000000000 ) ) ;
#136 = EDGE_CURVE ( 'NONE', #60, #146, #115, .T. ) ;
#137 = ORIENTED_EDGE ( 'NONE', *, *, #134, .T. ) ;
#138 = CARTESIAN_POINT ( 'NONE',  ( -3.000000000000000000, 0.000000000000000000, 0.000000000000000000 ) ) ;
#139 = AXIS2_PLACEMENT_3D ( 'NONE', #144, #227, #118 ) ;
#140 = AXIS2_PLACEMENT_3D ( 'NONE', #310, #150, #265 ) ;
#141 = DIRECTION ( 'NONE',  ( -1.000000000000000000, -0.000000000000000000, -0.000000000000000000 ) ) ;
#142 = EDGE_CURVE ( 'NONE', #63, #223, #148, .T. ) ;
#143 = CARTESIAN_POINT ( 'NONE',  ( -3.000000000000000000, 1.555301434917138433E-15, -12.69999999999999929 ) ) ;
#144 = CARTESIAN_POINT ( 'NONE',  ( 3.000000000000000000, 0.000000000000000000, 0.000000000000000000 ) ) ;
#145 = MANIFOLD_SOLID_BREP ( 'Ðý×', #295 ) ;
#146 = VERTEX_POINT ( 'NONE', #179 ) ;
#147 = AXIS2_PLACEMENT_3D ( 'NONE', #14, #325, #241 ) ;
#148 = LINE ( 'NONE', #311, #307 ) ;
#149 = PERSON_AND_ORGANIZATION_ROLE ( 'design_supplier' ) ;
#150 = DIRECTION ( 'NONE',  ( -1.000000000000000000, -0.000000000000000000, -0.000000000000000000 ) ) ;
#151 = SECURITY_CLASSIFICATION ( '', '', #26 ) ;
#152 = APPLICATION_CONTEXT ( 'configuration controlled 3d designs of mechanical parts and assemblies' ) ;
#153 = CALENDAR_DATE ( 2020, 23, 12 ) ;
#154 = DIRECTION ( 'NONE',  ( -1.000000000000000000, -0.000000000000000000, -0.000000000000000000 ) ) ;
#155 = AXIS2_PLACEMENT_3D ( 'NONE', #213, #188, #215 ) ;
#156 = CARTESIAN_POINT ( 'NONE',  ( -1.500000000000000444, 6.349999999999999645, 0.000000000000000000 ) ) ;
#157 = CARTESIAN_POINT ( 'NONE',  ( -1.614212418857619014, 0.000000000000000000, 0.000000000000000000 ) ) ;
#158 = DIRECTION ( 'NONE',  ( 1.000000000000000000, 0.000000000000000000, 0.000000000000000000 ) ) ;
#159 = AXIS2_PLACEMENT_3D ( 'NONE', #157, #123, #55 ) ;
#160 = VERTEX_POINT ( 'NONE', #98 ) ;
#161 = CC_DESIGN_PERSON_AND_ORGANIZATION_ASSIGNMENT ( #20, #199, ( #177 ) ) ;
#162 =( NAMED_UNIT ( * ) SI_UNIT ( $, .STERADIAN. ) SOLID_ANGLE_UNIT ( ) );
#163 = VECTOR ( 'NONE', #200, 1000.000000000000000 ) ;
#164 = ORIENTED_EDGE ( 'NONE', *, *, #35, .T. ) ;
#165 = AXIS2_PLACEMENT_3D ( 'NONE', #77, #258, #287 ) ;
#166 = EDGE_CURVE ( 'NONE', #176, #61, #333, .T. ) ;
#167 =( LENGTH_UNIT ( ) NAMED_UNIT ( * ) SI_UNIT ( .MILLI., .METRE. ) );
#168 = ORIENTED_EDGE ( 'NONE', *, *, #87, .F. ) ;
#169 = PERSON_AND_ORGANIZATION_ROLE ( 'design_owner' ) ;
#170 = ORIENTED_EDGE ( 'NONE', *, *, #254, .F. ) ;
#171 = CC_DESIGN_PERSON_AND_ORGANIZATION_ASSIGNMENT ( #52, #149, ( #177 ) ) ;
#172 = PERSON_AND_ORGANIZATION ( #261, #283 ) ;
#173 = CARTESIAN_POINT ( 'NONE',  ( 3.000000000000000888, 0.000000000000000000, 6.349999999999999645 ) ) ;
#174 = EDGE_LOOP ( 'NONE', ( #324, #44 ) ) ;
#175 = CC_DESIGN_PERSON_AND_ORGANIZATION_ASSIGNMENT ( #286, #29, ( #151 ) ) ;
#176 = VERTEX_POINT ( 'NONE', #6 ) ;
#177 = PRODUCT_DEFINITION_FORMATION_WITH_SPECIFIED_SOURCE ( 'ANY', '', #315, .NOT_KNOWN. ) ;
#178 = PERSON_AND_ORGANIZATION ( #261, #283 ) ;
#179 = CARTESIAN_POINT ( 'NONE',  ( 1.500000000000000888, 0.000000000000000000, 6.349999999999999645 ) ) ;
#180 = APPROVAL_DATE_TIME ( #329, #32 ) ;
#181 = CARTESIAN_POINT ( 'NONE',  ( 1.500000000000000888, 7.776507174585692163E-16, -6.349999999999999645 ) ) ;
#182 = PRODUCT_DEFINITION_SHAPE ( 'NONE', 'NONE',  #84 ) ;
#183 = AXIS2_PLACEMENT_3D ( 'NONE', #328, #49, #19 ) ;
#184 = PLANE ( 'NONE',  #99 ) ;
#185 = AXIS2_PLACEMENT_3D ( 'NONE', #105, #212, #317 ) ;
#186 = DIRECTION ( 'NONE',  ( -1.000000000000000000, -0.000000000000000000, -0.000000000000000000 ) ) ;
#187 = FACE_OUTER_BOUND ( 'NONE', #214, .T. ) ;
#188 = DIRECTION ( 'NONE',  ( -1.000000000000000000, -0.000000000000000000, -0.000000000000000000 ) ) ;
#189 = VERTEX_POINT ( 'NONE', #4 ) ;
#190 = ADVANCED_FACE ( 'NONE', ( #124 ), #102, .F. ) ;
#191 = AXIS2_PLACEMENT_3D ( 'NONE', #319, #131, #130 ) ;
#192 = ORIENTED_EDGE ( 'NONE', *, *, #195, .F. ) ;
#193 = ORIENTED_EDGE ( 'NONE', *, *, #233, .F. ) ;
#194 = DATE_AND_TIME ( #278, #264 ) ;
#195 = EDGE_CURVE ( 'NONE', #189, #63, #206, .T. ) ;
#196 = ORIENTED_EDGE ( 'NONE', *, *, #42, .T. ) ;
#197 = CARTESIAN_POINT ( 'NONE',  ( -1.500000000000000444, 0.000000000000000000, 0.000000000000000000 ) ) ;
#198 = CC_DESIGN_SECURITY_CLASSIFICATION ( #151, ( #177 ) ) ;
#199 = PERSON_AND_ORGANIZATION_ROLE ( 'creator' ) ;
#200 = DIRECTION ( 'NONE',  ( -1.000000000000000000, -0.000000000000000000, -0.000000000000000000 ) ) ;
#201 =( GEOMETRIC_REPRESENTATION_CONTEXT ( 3 ) GLOBAL_UNCERTAINTY_ASSIGNED_CONTEXT ( ( #5 ) ) GLOBAL_UNIT_ASSIGNED_CONTEXT ( ( #167, #59, #162 ) ) REPRESENTATION_CONTEXT ( 'NONE', 'WORKASPACE' ) );
#202 = EDGE_LOOP ( 'NONE', ( #111, #168 ) ) ;
#203 = CARTESIAN_POINT ( 'NONE',  ( 3.000000000000000888, 0.000000000000000000, 0.000000000000000000 ) ) ;
#204 = PERSON_AND_ORGANIZATION ( #261, #283 ) ;
#205 = DIRECTION ( 'NONE',  ( -0.000000000000000000, 0.000000000000000000, 1.000000000000000000 ) ) ;
#206 = CIRCLE ( 'NONE', #313, 6.349999999999999645 ) ;
#207 = DATE_AND_TIME ( #297, #11 ) ;
#208 = CYLINDRICAL_SURFACE ( 'NONE', #165, 6.349999999999999645 ) ;
#209 = PLANE ( 'NONE',  #301 ) ;
#210 = DIRECTION ( 'NONE',  ( 0.000000000000000000, 0.000000000000000000, 1.000000000000000000 ) ) ;
#211 = ADVANCED_BREP_SHAPE_REPRESENTATION ( 'Q-QZWP-R4-12.7-795-M', ( #145, #117 ), #201 ) ;
#212 = DIRECTION ( 'NONE',  ( -1.000000000000000000, 0.000000000000000000, -0.000000000000000000 ) ) ;
#213 = CARTESIAN_POINT ( 'NONE',  ( -1.614212418857619014, 0.000000000000000000, 0.000000000000000000 ) ) ;
#214 = EDGE_LOOP ( 'NONE', ( #170, #88, #10, #322 ) ) ;
#215 = DIRECTION ( 'NONE',  ( 0.000000000000000000, 0.000000000000000000, 1.000000000000000000 ) ) ;
#216 = ORIENTED_EDGE ( 'NONE', *, *, #327, .F. ) ;
#217 = ORIENTED_EDGE ( 'NONE', *, *, #134, .F. ) ;
#218 = DIRECTION ( 'NONE',  ( 0.000000000000000000, 0.000000000000000000, 1.000000000000000000 ) ) ;
#219 = ADVANCED_FACE ( 'NONE', ( #53 ), #208, .F. ) ;
#220 = DATE_TIME_ROLE ( 'creation_date' ) ;
#221 = DIRECTION ( 'NONE',  ( 0.000000000000000000, 0.000000000000000000, 1.000000000000000000 ) ) ;
#222 = CC_DESIGN_PERSON_AND_ORGANIZATION_ASSIGNMENT ( #172, #309, ( #84 ) ) ;
#223 = VERTEX_POINT ( 'NONE', #314 ) ;
#224 = APPROVAL_PERSON_ORGANIZATION ( #178, #292, #76 ) ;
#225 = CIRCLE ( 'NONE', #80, 6.349999999999999645 ) ;
#226 = CARTESIAN_POINT ( 'NONE',  ( -1.614212418857619014, 0.000000000000000000, 6.349999999999999645 ) ) ;
#227 = DIRECTION ( 'NONE',  ( -1.000000000000000000, -0.000000000000000000, -0.000000000000000000 ) ) ;
#228 = CARTESIAN_POINT ( 'NONE',  ( -1.500000000000000444, 0.000000000000000000, 6.349999999999999645 ) ) ;
#229 = CALENDAR_DATE ( 2020, 23, 12 ) ;
#230 = FACE_BOUND ( 'NONE', #37, .T. ) ;
#231 = PERSON_AND_ORGANIZATION ( #261, #283 ) ;
#232 = FACE_OUTER_BOUND ( 'NONE', #202, .T. ) ;
#233 = EDGE_CURVE ( 'NONE', #160, #223, #8, .T. ) ;
#234 = DIRECTION ( 'NONE',  ( 1.000000000000000000, 0.000000000000000000, 0.000000000000000000 ) ) ;
#235 = ADVANCED_FACE ( 'NONE', ( #31, #288 ), #184, .F. ) ;
#236 = CYLINDRICAL_SURFACE ( 'NONE', #237, 6.349999999999999645 ) ;
#237 = AXIS2_PLACEMENT_3D ( 'NONE', #54, #154, #51 ) ;
#238 = CYLINDRICAL_SURFACE ( 'NONE', #191, 12.69999999999999929 ) ;
#239 = EDGE_LOOP ( 'NONE', ( #91, #85, #107, #71 ) ) ;
#240 = CC_DESIGN_DATE_AND_TIME_ASSIGNMENT ( #326, #1, ( #151 ) ) ;
#241 = DIRECTION ( 'NONE',  ( 0.000000000000000000, 0.000000000000000000, 1.000000000000000000 ) ) ;
#242 = VERTEX_POINT ( 'NONE', #181 ) ;
#243 = CYLINDRICAL_SURFACE ( 'NONE', #155, 6.349999999999999645 ) ;
#244 = EDGE_LOOP ( 'NONE', ( #164, #66, #38, #216 ) ) ;
#245 = ORIENTED_EDGE ( 'NONE', *, *, #42, .F. ) ;
#246 = DIRECTION ( 'NONE',  ( 0.000000000000000000, 0.000000000000000000, 1.000000000000000000 ) ) ;
#247 = ADVANCED_FACE ( 'NONE', ( #187 ), #236, .F. ) ;
#248 = COORDINATED_UNIVERSAL_TIME_OFFSET ( 8, 0, .AHEAD. ) ;
#249 = DIRECTION ( 'NONE',  ( 0.000000000000000000, 0.000000000000000000, 1.000000000000000000 ) ) ;
#250 = EDGE_LOOP ( 'NONE', ( #16, #275 ) ) ;
#251 = LINE ( 'NONE', #305, #282 ) ;
#252 = AXIS2_PLACEMENT_3D ( 'NONE', #81, #33, #210 ) ;
#253 = CARTESIAN_POINT ( 'NONE',  ( 3.000000000000000888, 0.000000000000000000, 0.000000000000000000 ) ) ;
#254 = EDGE_CURVE ( 'NONE', #189, #160, #260, .T. ) ;
#255 = COORDINATED_UNIVERSAL_TIME_OFFSET ( 8, 0, .AHEAD. ) ;
#256 = DIRECTION ( 'NONE',  ( 1.000000000000000000, 0.000000000000000000, 0.000000000000000000 ) ) ;
#257 = COORDINATED_UNIVERSAL_TIME_OFFSET ( 8, 0, .AHEAD. ) ;
#258 = DIRECTION ( 'NONE',  ( -1.000000000000000000, -0.000000000000000000, -0.000000000000000000 ) ) ;
#259 = CC_DESIGN_PERSON_AND_ORGANIZATION_ASSIGNMENT ( #67, #169, ( #315 ) ) ;
#260 = LINE ( 'NONE', #30, #40 ) ;
#261 = PERSON ( 'UNSPECIFIED', 'UNSPECIFIED', 'UNSPECIFIED', ('UNSPECIFIED'), ('UNSPECIFIED'), ('UNSPECIFIED') ) ;
#262 = ADVANCED_FACE ( 'NONE', ( #232, #230 ), #126, .F. ) ;
#263 = CARTESIAN_POINT ( 'NONE',  ( 3.000000000000000000, 12.69999999999999929, 0.000000000000000000 ) ) ;
#264 = LOCAL_TIME ( 9, 24, 24.00000000000000000, #255 ) ;
#265 = DIRECTION ( 'NONE',  ( 0.000000000000000000, 0.000000000000000000, 1.000000000000000000 ) ) ;
#266 = LOCAL_TIME ( 9, 24, 24.00000000000000000, #78 ) ;
#267 = LINE ( 'NONE', #86, #96 ) ;
#268 = ADVANCED_FACE ( 'NONE', ( #308 ), #209, .F. ) ;
#269 = DESIGN_CONTEXT ( 'detailed design', #34, 'design' ) ;
#270 = ORIENTED_EDGE ( 'NONE', *, *, #136, .F. ) ;
#271 = EDGE_CURVE ( 'NONE', #242, #146, #62, .T. ) ;
#272 = AXIS2_PLACEMENT_3D ( 'NONE', #330, #141, #249 ) ;
#273 = ORIENTED_EDGE ( 'NONE', *, *, #89, .F. ) ;
#274 = CIRCLE ( 'NONE', #147, 6.349999999999999645 ) ;
#275 = ORIENTED_EDGE ( 'NONE', *, *, #36, .T. ) ;
#276 = CALENDAR_DATE ( 2020, 23, 12 ) ;
#277 = ORIENTED_EDGE ( 'NONE', *, *, #271, .T. ) ;
#278 = CALENDAR_DATE ( 2020, 23, 12 ) ;
#279 = CARTESIAN_POINT ( 'NONE',  ( 3.000000000000000888, 7.776507174585692163E-16, -6.349999999999999645 ) ) ;
#280 = ORIENTED_EDGE ( 'NONE', *, *, #122, .F. ) ;
#281 = APPROVAL_PERSON_ORGANIZATION ( #204, #32, #113 ) ;
#282 = VECTOR ( 'NONE', #302, 1000.000000000000000 ) ;
#283 = ORGANIZATION ( 'UNSPECIFIED', 'UNSPECIFIED', '' ) ;
#284 = ORIENTED_EDGE ( 'NONE', *, *, #321, .T. ) ;
#285 = ADVANCED_FACE ( 'NONE', ( #56 ), #9, .F. ) ;
#286 = PERSON_AND_ORGANIZATION ( #261, #283 ) ;
#287 = DIRECTION ( 'NONE',  ( 0.000000000000000000, 0.000000000000000000, 1.000000000000000000 ) ) ;
#288 = FACE_OUTER_BOUND ( 'NONE', #250, .T. ) ;
#289 = AXIS2_PLACEMENT_3D ( 'NONE', #138, #24, #73 ) ;
#290 = DIRECTION ( 'NONE',  ( 0.000000000000000000, 0.000000000000000000, -1.000000000000000000 ) ) ;
#291 = DIRECTION ( 'NONE',  ( 0.000000000000000000, 0.000000000000000000, 1.000000000000000000 ) ) ;
#292 = APPROVAL ( #70, 'UNSPECIFIED' ) ;
#293 = ADVANCED_FACE ( 'NONE', ( #12 ), #243, .F. ) ;
#294 = LOCAL_TIME ( 9, 24, 24.00000000000000000, #257 ) ;
#295 = CLOSED_SHELL ( 'NONE', ( #316, #219, #190, #285, #293, #247, #235, #65, #262, #268 ) ) ;
#296 = AXIS2_PLACEMENT_3D ( 'NONE', #263, #103, #205 ) ;
#297 = CALENDAR_DATE ( 2020, 23, 12 ) ;
#298 = LINE ( 'NONE', #21, #163 ) ;
#299 = APPROVAL_ROLE ( '' ) ;
#300 = VERTEX_POINT ( 'NONE', #90 ) ;
#301 = AXIS2_PLACEMENT_3D ( 'NONE', #156, #234, #104 ) ;
#302 = DIRECTION ( 'NONE',  ( -1.000000000000000000, -0.000000000000000000, -0.000000000000000000 ) ) ;
#303 = PRODUCT_RELATED_PRODUCT_CATEGORY ( 'detail', '', ( #315 ) ) ;
#304 = EDGE_LOOP ( 'NONE', ( #273, #192 ) ) ;
#305 = CARTESIAN_POINT ( 'NONE',  ( -1.614212418857619014, 1.555301434917138433E-15, -12.69999999999999929 ) ) ;
#306 = COORDINATED_UNIVERSAL_TIME_OFFSET ( 8, 0, .AHEAD. ) ;
#307 = VECTOR ( 'NONE', #28, 1000.000000000000000 ) ;
#308 = FACE_OUTER_BOUND ( 'NONE', #304, .T. ) ;
#309 = PERSON_AND_ORGANIZATION_ROLE ( 'creator' ) ;
#310 = CARTESIAN_POINT ( 'NONE',  ( -2.999999999999999556, 0.000000000000000000, 0.000000000000000000 ) ) ;
#311 = CARTESIAN_POINT ( 'NONE',  ( -1.614212418857619014, 0.000000000000000000, 6.349999999999999645 ) ) ;
#312 = VECTOR ( 'NONE', #75, 1000.000000000000000 ) ;
#313 = AXIS2_PLACEMENT_3D ( 'NONE', #128, #256, #83 ) ;
#314 = CARTESIAN_POINT ( 'NONE',  ( -2.999999999999999556, 0.000000000000000000, 6.349999999999999645 ) ) ;
#315 = PRODUCT ( 'Q-QZWP-R4-12.7-795-M', 'Q-QZWP-R4-12.7-795-M', '', ( #109 ) ) ;
#316 = ADVANCED_FACE ( 'NONE', ( #58 ), #238, .T. ) ;
#317 = DIRECTION ( 'NONE',  ( -0.000000000000000000, 0.000000000000000000, 1.000000000000000000 ) ) ;
#318 = ORIENTED_EDGE ( 'NONE', *, *, #101, .T. ) ;
#319 = CARTESIAN_POINT ( 'NONE',  ( -1.614212418857619014, 0.000000000000000000, 0.000000000000000000 ) ) ;
#320 = ORIENTED_EDGE ( 'NONE', *, *, #36, .F. ) ;
#321 = EDGE_CURVE ( 'NONE', #146, #242, #274, .T. ) ;
#322 = ORIENTED_EDGE ( 'NONE', *, *, #122, .T. ) ;
#323 = CC_DESIGN_APPROVAL ( #106, ( #84 ) ) ;
#324 = ORIENTED_EDGE ( 'NONE', *, *, #321, .F. ) ;
#325 = DIRECTION ( 'NONE',  ( -1.000000000000000000, -0.000000000000000000, -0.000000000000000000 ) ) ;
#326 = DATE_AND_TIME ( #276, #331 ) ;
#327 = EDGE_CURVE ( 'NONE', #132, #176, #267, .T. ) ;
#328 = CARTESIAN_POINT ( 'NONE',  ( 3.000000000000000000, 0.000000000000000000, 0.000000000000000000 ) ) ;
#329 = DATE_AND_TIME ( #229, #266 ) ;
#330 = CARTESIAN_POINT ( 'NONE',  ( -2.999999999999999556, 0.000000000000000000, 0.000000000000000000 ) ) ;
#331 = LOCAL_TIME ( 9, 24, 24.00000000000000000, #306 ) ;
#332 = ORIENTED_EDGE ( 'NONE', *, *, #327, .T. ) ;
#333 = CIRCLE ( 'NONE', #252, 12.69999999999999929 ) ;
#334 = DIRECTION ( 'NONE',  ( -1.000000000000000000, -0.000000000000000000, -0.000000000000000000 ) ) ;
#335 = ORIENTED_EDGE ( 'NONE', *, *, #87, .T. ) ;
ENDSEC;
END-ISO-10303-21;
